Home  UK National Anthem - God Save The Queen  Printer Friendly  TAB explained

number = left hand finger  X = silent string  O = play open string   thin string chord grid right

G

 _ _O_O_ _
|_|_|_|_|_|
|_1_|_|_|_|
2_|_|_|_3_4
Em

O_ _ _O_O_O
|_|_|_|_|_|
|_2_3_|_|_|
|_|_|_|_|_|
Am

X_O_ _ _ _O
|_|_|_|_1_|
|_|_2_3_|_|
|_|_|_|_|_|
D

X_X_O_ _ _
|_|_|_|_|_|
|_|_|_1_|_2
|_|_|_|_3_|
C

X_ _ _O_ _0
|_|_|_|_1_|
|_|_2_|_|_|
|_3_|_|_|_|

 [ G ] God [ Em ] save [ Am ] our [ D ] gra [ C ] cious [ D ] Queen
e -----------------------------------------------------------------
B -----------------------------------------------------------------
G -----0----------0-----------2-------------------0-----------2----
D --------------------------------------4--------------------------

 [ G ] Long [ Em ] live [ Am ] our [ G ] no [ D ] ble [ Em ] Queen
e ----------------------------------------------------------------
B -----0-----------0-----------1---------0------------------------
G ------------------------------------------------2----------0----

 [ Am ] God [ G ] save [ D ] the [ G ] Queen
e -------------------------------------------------------------
B ---------------------------------------------------------1---
G ------2---------0--------------------0-------0---2---4-------
D ----------------------------4--------------------------------

 [ G ] Send her victor [ D ] i [ G ] ous
e --------------------------------------
B -----3----3---3--3---------1-------0--

 [ D ] Happy and glor [ G ] i [ D ] ous
e -------------------------------------
B -----1--1--1---1----------0----------
G ----------------------------------2--

 [ G ] Long t_o reign o [ C ] ver [ G ] us
e ----------------------------------------
B -----0----1-0-------0-------1---------3-
G --------------2-0-----------------------

 [ C ] God [ G ] save [ D ] the [ G ] Queen
e -----0-----------------------------------
B -------1-------0-------------------------
G --------------------------2---------0----
Left palm

    2
  1 | 3
  | | | 4
T | | | |
| | | | |
 \| | | |

Start
singing:
 _ _ _O_ _
|_|_|_|_|_|
|_|_|_|_|_|
|_|_|_|_|_|