Home - ukulele web site  Baa Baa Black Sheep

  Baa Baa Black Sheep have you any wool?
A|---------------------0---2---3-0------
E|---------3-----3-----------------3----
C|-0---0--------------------------------
G|--------------------------------------

  Yes sir Yes sir three bags full.
A|--------------------------------
E|-1---1---0---0------------------
C|-----------------2-----2----0---
G|--------------------------------

  One for the master and one for the dame,
A|----------------------------------------
E|-3---3---3---1--1---1---0---0---0-------
C|------------------------------------2---
G|----------------------------------------

  And one for the little boy who lives down the lane.
A|------------------------0--------------------------
E|-----3---3---3---1--3-------1---0------------------
C|-2------------------------------------2----2---0---
G|---------------------------------------------------

C

 _ _ _
|_|_|_|
|_|_|_|
|_|_|_3
F

 _ _ _
|_|_1_|
2_|_|_|
|_|_|_|
G

 _ _ _
|_|_|_|
|_1_|_2
|_|_3_|
Start
singing:
 _0_ _
|_|_|_|
|_|_|_|
|_|_|_|

[ C ] Baa Baa Black Sheep [ F ] have you any [ C ] wool?

[ F ] Yes sir [ C ] Yes sir [ G ] three bags [ C ] full.

[ C ] One for the [ F ] master and [ C ] one for the [ G ] dame,

And [ C ] one for the [ F ] little boy who [ G ] lives down the [ C ] lane.

Left palm

    2
  1 | 3
  | | | 4
T | | | |
| | | | |


number = left hand finger

Imagine the tuning pegs at
top of chord grids