Home - ukulele web site  Frère Jacques - ukulele


   Frère Jacques,     Frère Jacques,
A|----------------------------------
E|-------0------------------0-------
C|-0--2-----0---------0--2-----0----
G|----------------------------------

   Dormez Vous?     Dormez Vous?
A|------------------------------
E|-0--1---3---------0--1---3----
C|------------------------------
G|------------------------------

   Sonnez les matines,      Sonnez les matines,
A|----0------------------------0---------------
E|-3------3---1-0-----------3------3---1-0-----
C|----------------0------------------------0---
G|---------------------------------------------

   Ding dang dong.     Ding dang dong.
A|------------------------------------
E|------------------------------------
C|-0---------0---------0---------0----
G|------0-------------------0---------


    2
  1 | 3
  | | | 4
T | | | |
| | | | |
 \| | | |

3

Left palm
T = thumb

finger 1 = fret 1
finger 2 = fret 2
finger 3 = fret 3

Easy strum
Chord: C

O_O_O_
|_|_|_|
|_|_|_|
|_|_|_3