Home - ukulele web site  Rock A Bye Baby - ukulele

C

 _ _ _
|_|_|_|
|_|_|_|
|_|_|_3
G

 _ _ _
|_|_|_|
|_1_|_2
|_|_3_|
F

 _ _ _
|_|_1_|
2_|_|_|
|_|_|_|
Start
singing:
 _0_ _
|_|_|_|
|_|_|_|
|_|_|_|


[ C ] Rock a bye baby [ G ] on the tree [ C ] top.

When the wind blows the [ G ] cradle will [ C ] rock.

When the bow breaks the [ G ] cradle will fall.

[ C ] Down will come [ F ] baby, [ G ] cradle and [ C ] all.


  Rock a bye Baby on the tree top,
A|--------------------------------
E|-----------0-0------------------
C|-0---2--0-------2---0---2----0--
G|--------------------------------

  When the wind blows the cradle will rock.
A|-----------------------------------------
E|-0----1---0----3-----3---1--0---1----0---
C|-----------------------------------------
G|-----------------------------------------

  When the bow breaks the cradle will fall,
A|-----------------------------------------
E|-------------0------0------0--------1----
C|-0----2--0---------------2------2--------
G|-----------------------------------------

  Down will come baby cradle and all.
A|-----------------------------------
E|-0----3--------1-0-----------------
C|-----------0---------2--0-------0--
G|----------------------------4------